Classical Gas – Mason Williams

Intro

|----------------|-------------|-------------|-------------|
|----1-------1---|---0---------|---0---------|-------------|
|--------2-------|--0----------|--0--2---0---|---2---------|
|----------------|-------------|-------------|--2----------|
|----0-----------|-------------|-------------|-0-----------|
|----------------|-3---------2-|-0-----------|-------------|

|--------------|-------------|----------------|-------------|
|---0h1----0h1-|---0---------|---0----------0-|-------------|
|--2---2-------|--0----------|--0---2--0-0h2--|---2---------|
|--------------|-------------|----------------|--2----------|
|-0------------|-------------|----------------|-0-----------|
|--------------|-3---------2-|-0--------------|-------------|

|-------------------|--0----------------|-----------------|
|-----------------3-|--------3-1---3----|---1-0-----------|
|-----0-----0---0---|------0---2--------|-----------------|
|---0-----0---------|-------------------|-2---------------|
|-------0-----2-----|--3----------------|-----------------|
|-3-----------------|-------------------|-----------------|


Part A:
|--------------------|-----------------|-----------------|
|--0h1p0-1-----1---0-|-----------------|-0---------0-----|
|*---------2---------|-----0-----0-----|---2-0-2-------2-|
|*---------------2---|---0-----0-----0-|-----------------|
|--0---------0-------|-----------------|-----------------|
|--------------------|-3-----2-----0---|-0-------0---0---|

|------------------|-----------------|-----------------|
|------------------|-------0-----0-1-|-----1-----3-----|
|-----2-----2-----*|-----2-----0-----|---2-----0-----0-|
|---2-----2-----2-*|---2-------------|-----------------|
|-0-----0-----0----|-0---------------|-0-----2-----2---|
|------------------|---------3-------|-----------------|

|--0--------------------|-----------------|-----------------|
|-------3-1--3----1p0---|-----------------|-------0-----0-1-|
|-----0---2---------0---|-2-----0-2-2---0-|-2---2-----0-----|
|---------------2-------|---------2-------|---2-------------|
|--3--------------------|-----------------|-0---------------|
|-----------------------|-1-------0-------|---------3-------|

|-----------------|--0-----1-----|-2-----3-----|-4---5p0--7----|
|-----1-----3-----|----1-----1---|---1-----0---|---0----0---0--|
|---2-----0-----0-|------0-----2-|-----2-----0-|---------------|
|-----------------|--------------|-0-----------|---------------|
|-0-----2-----2---|--3-----------|-------------|---------------|
|-----------------|--------1-----|-------3-----|-0-------------|

Part B:
|--8-7-------------|---------5-------|-8-7-------------|
|-----10-8--10---7-|--10-7-----5-----|----10-8--10---7-|
|--------9---9---7-|-----7-----5-----|-----------9---7-|
|------------------|-0-----0---------|-----------------|
|--0-------0---0---|-------------0---|-0-------0---0---|
|------------------|-----------------|-----------------|

|-------5----------|-8-7-------------|-----8----------3-|
|---8-----7------0-|----10-8--10---7-|----10-10-8-----3-|
|---9-----7----0---|-------9---9---7-|----------9-------|
|-0---0-----0h2----|-----------------|-0-0--------0-----|
|------------------|-0-------0---0---|------------------|
|------------------|-----------------|------------------|

|------------1----------|---0-----0-----0-----0---|
|------5-----1-----3----|---3-----3-----3-----3---|
|------5-----2-----3----|---2-----2-----2-----2---|
|------5-0---------3-0--|-------------------------|
|----5-----------1------|-0-----0-----0-----0-----|
|--3-------1---1--------|-------------------------|

|----------------0-|------------------|
|------------3-----|---3---------3p0--|
|--------2---------|-------2---2------|
|----3-------------|---------3--------|
|--0---------------|------------------|
|------------------|------------------|

Part C:
|-------------------|-----------------|-------------------|
|-0h1p0-1---------3-|-----1-----0-----|-0h1p0-1---------0-|
|---------2-----2---|-----------------|---------2-----2---|
|-------------2-----|---2-----2-----2-|-------------2-----|
|-0---------0-------|-0-----0-----0---|-0---------0-------|
|-------------------|-----------------|-------------------|

|-----------------|-------------------|-----------------|
|-----------------|-0h1p0-1---------0-|-----1-----3-----|
|-----2-----0-----|---------2-----2---|-----------------|
|---2-----2-----2-|-------------2-----|---2-----2-----2-|
|-0-----0-----0---|-0---------0-------|-0-----0-----0---|
|-----------------|-------------------|-----------------|

|-----------------|------------------|
|-5---5-3---3-1---|-1-0---0---0-1-0--|
|---5-----4-----2-|-----0---2--------|
|-----------------|------------------|
|-0-----0-----0---|---0-----0--------|
|-----------------|------------------|

Part D:
|-0---0-----------|---------1p0-----|-0---0-----------|
|---3---1-----1-0-|-----3-------3---|---3---1-----1-0-|
|-----------0-----|---0---0-------0-|-----------2-----|
|-----------------|-----------------|-----------------|
|-3-------3-------|-2---2---2-------|-0-------0-------|
|-----------------|-----------------|-----------------|

|---------1p0-----|-0---0-----------|---------1p0-----|
|-----3-------3---|---3---1-----1-0-|-----3-------3---|
|---0---0-------0-|-----------0-----|---0---0-------0-|
|-----------------|-----------------|-----------------|
|-----------------|-3-------3-------|-2---2---2-------|
|-3---3---3-------|-----------------|-----------------|

|-0---0-----------|-----------------|-----------------|
|---3---1-----1-0-|-----------------|-0---------0-----|
|-----------2-----|-----0-----0-----|---2-0-2---0---0-|
|-----------------|---0-----0-----0-|-----------------|
|-0-------0-------|-----------------|-----------------|
|-----------------|-3-----2-----0---|-0-------0---0---|

|-----------------|-0---1---2---3---|-4-----5p0---7-----|
|-----0---1---3---|---------------0-|----0-----0-----0--|
|-2-----0---0---0-|---0---2---2-----|-------------------|
|---2-------------|---------0-------|-------------------|
|-0-------0---2---|-3---------------|-------------------|
|-----3-----------|-----1-------3---|-0-----0-----0-----|

Part B2:

|--8-7-------------|---------5-------|-8-7-------------|
|-----10-8--10---7-|--10-7-----5-----|----10-8--10---7-|
|--------9---9---7-|-----7-----5-----|-----------9---7-|
|------------------|-0-----0---------|-----------------|
|--0-------0---0---|-------------0---|-0-------0---0---|
|------------------|-----------------|-----------------|

|-------5----------|-8-7-------------|-----8----------3-|
|---8-----7------0-|----10-8--10---7-|----10-10-8-----3-|
|---9-----7----0---|-------9---9---7-|----------9-------|
|-0---0-----0h2----|-----------------|-0---0------------|
|------------------|-0-------0---0---|------------0-----|
|------------------|-----------------|------------------|

|------------1----------|---0-----0-----0-----0---|-----0-----------|
|------5-----1-----3----|---3-----3-----3-----3---|------3----------|
|------5-----2-----3----|---2-----2-----2-----2---|-------2---------|
|------5-0---------3-0--|-------------------------|---3----3--------|
|----5------------------|-0-----0-----0-----0-----|-0---------------|
|--3-------1---1/3------|-------------------------|-----------------|

Part A2:
|-------------------|-----------------|-----------------|
|-0h1p0-1-----1---0-|-----------------|-0---------0-----|
|---------2---------|-----0-----0-----|---2-0-2-------2-|
|---------------2---|---0-----0-----0-|-----------------|
|-0---------0-------|-----------------|-----------------|
|-------------------|-3-----2-----0---|-0-----------0---|

|-----------------|-------------------|-----------------|
|-----------------|-0h1p0-1-----1---0-|-----------------|
|-----2-----2-----|---------2---------|-----0-----0-----|
|---2-----2-----2-|-------------------|---0-----0-----0-|
|-0-----0-----0---|-----------0-------|-----------------|
|-----------------|-------------------|-3-----2-----0---|

|-----------------|-----------------|-----------------|
|-0---------0-----|-------0-----0-1-|-----1-----3-----|
|---2-0-2-------2-|-----2-----0-----|---2-----0-----0-|
|-----------------|---2-------------|-----------------|
|-----------------|-0---------------|-0-----2-----2---|
|-0-------0---0---|---------3-------|-----------------|

|--0--------------------|-----------------|-----------------|
|-------3-1--3----1p0---|-----------------|-----0---1---3---|
|-----0---2-------------|-2-----0-2-2---0-|-2-----0---0---0-|
|---------------2--p0---|---------2-2-----|---2-------------|
|--3--------------------|-----------------|-0-------0---2---|
|-----------------------|-1-------0-------|-----3-----------|

|-0---1---2---3---|-4-----5p0---7--5--||
|---------------0-|----0-----0--------||
|---0---2---2-----|-------------------||
|---------0-------|-------------------||
|-3---------------|-------------------||
|-----1-------3---|-0-----0-----0-----||

CODA:

|------------3-----|-------1----------|---------------0-|
|------7-----3-----|-5-----1-----3----|-----------3-----|
|------7-----4-----|-5-----2-----3----|-------2---------|
|------7-0---------|-5-0---------3-0--|---3-------------|
|----5-----------3-|-----------1------|-0---------------|
|--5-------3---3---|-----1---1--------|-----------------|

|------------------|---------------0-|----------------|
|---3---------3----|-----------3-----|---3---------3--|
|-------2---2---0--|-------2---------|-------2---2----|
|---------3--------|---4-------------|---------4------|
|------------------|-0---------------|----------------|
|------------------|-----------------|----------------|

|--------------------|
|-------2p0-2--------|
|------2-------------|
|-----2--------------|
|-0------------------|
|--------------------|

Somebody that I use to know – Gotye

Am      G      Am G    Am   G Am  G
Now and then I think of when we were together
Like when you said you felt so happy you could die
Told myself that you were right for me
But felt so lonely in your company
But that was love and it's an ache I still remember

You can get addicted to a certain kind of sadness
Like resignation to the end
Always the end
So when we found that we could not make sense
Well you said that we would still be friends
But I'll admit that I was glad that it was over

Am      G              F    G
But you didn't have to cut me off
Am       G          F
Make out like it never happened
         G          Am
And that we were nothing
    G             F       G
And I don't even need your love
         Am              G
But you treat me like a stranger
          F       G
And that feels so rough

You didn't have to stoop so low
Have your friends collect your records
And then change your number
I guess that I don't need that though
Now you're just somebody that I used to know

Am       G             Am                  G          Am  G Am G      
Now and then I think of all the times you screwed me over
Am          G                F              G      Am   G Am G
But had me believing it was always something that I'd done
F    Am            G       
And I don't wanna live that way
F      Am      G
Reading into every word you say
F      Am        G
You said that you could let it go
F      Am         G
And I wouldnt catch you hung up on somebody that you used to know

But you didn't have to cut me off
Make out like it never happened
And that we were nothing
And I don't even need your love
But you treat me like a stranger
And that feels so rough
You didn't have to stoop so low
Have your friends collect your records
And then change your number
I guess that I don't need that though
Now you're just somebody that I used to know

Am  G    F  G
I used to know
Am   G    F   G
That I used to know x2

Am    G   F   G
Somebody...

Leave a Reply

Your email address will not be published.